Minggu, 30 September 2012

Chord Lagu Tak Bisakah (Tab) - Peterpan

E|--5/7--7--5--3------------------------------------
B|----------------5--5--5--3/5--5--3--5/7--7--5--3--
G|--------------------------------------------------
D|--------------------------------------------------
A|--------------------------------------------------
E|--------------------------------------------------

E|--5h7--7--12--10--7--7--7--
B|---------------------------
G|---------------------------
D|---------------------------
A|---------------------------
E|---------------------------

E|--7--5/7--7--3--3--3--2--3--2-----
B|-------------------------------3--
G|----------------------------------
D|----------------------------------
A|----------------------------------
E|----------------------------------

Ni tab udh gw jamin bener...tpi klo slah maklumin aj yee..
by : GibQar

Jumat, 28 September 2012

Chord Lagu Piknik 72 - Naif


[Intro] E B7 E B7

E           B7           E
Pergi dihari minggu
E           A           B
Bersama pacar baru
            E                G#
Naik vespa kliling kota
       A             Am
Sampai binaria
E          B7            E B7
Hatiku jadi gembira

E           B7          E
Sesampainya disana
E           A        B
Duduk dua duaan
            E         G#
Makan roti buaya
      A               Am
Dengar lagu kita
E          B7             E B7
Kita menari bersama

E               G#              C#m            A
Di batang pohon kan ku ukir nama kita
E           B7           E      B7
Tanda sayang selalu
[Interlude] E B7 E B7
                G# C#m F#m B7

E          B7                E
Sore hari telah menjelang
E           A           B
Saatnya untuk pulang
            E            G#
Vespa mogok di jalan
      A              Am
Turun pula hujan
E            B7            E B7
Berteduh kita di taman

E             B7          E
Lihat dik itu melati
E           A           B
Indah nian berseri
             E            G#
Kan ku petik untukmu
       A               Am
Simpan dalam hati
E           B7             E
Nanti kuambil kembali
            B7             E
Nanti kuambil kembali
            B7             E
Nanti kuambil kembali
            Am             E
Nanti kuambil kembali
            C              E
Nanti kuambil kembali

[Coda] Em7

Rabu, 26 September 2012

Chord Lagu Munafik - Gigi

[Intro] Fm Cm C#m Bbm 2x


Fm                   C#m
Ulah manusia kadang menyakitkan
Fm                   C#m
Tidaklah selalu membahagiakan
Fm                  C#m
Dan itu terjadi padamu semua
Fm                       C#m
Seseorang yang sangat ku kagumi


Cm                  C#m
Hanya saja, kau tak merasa
Cm            C#m
Kepalsuan kemunafikanmu

[chorus]
G#       Eb/G  
Lihatlah dirimu
Bbm     
merasa diri yang terpuji
C#m
merasa yang paling suci
G#       Eb/G 
Akankah dirimu
Bbm
menjadi orang paling benar
C#m
memberikan kebenaran

Fm-C

Fm                   C#m
Dua sisi kehidupan di dunia
Fm                    C#m 
Keburukan kebaikan akan selalu ada
Fm                     C#m
kau merasa terhebat dan terbaik
Fm                      C#m
tak kan pernah merasa yang terpuruk


[Interlude] G# Eb/G Bbm C#m

Reff, Reff

Coda: Fm C C#m Bbm 2x

Chord Lagu Doy - Kangen Band


[Intro] Bm      A      Bm      G F#

            Bm
Sejenak ku terdiam dan membisu
           D
Membuatku lelah dan tanpa arah
      Em
Coba mengertilah, coba pahamilah
            F#5               B5 F/A
Arti cinta sesungguhnya

        Bm
Dan letakkan hatimu disini
             D
Ku berjanji kau takan kusakiti
      Em
Sejuk, sepi, sedan dan banyakan bintang
             F#m
Hanya kaulah yang ku sayang

[Intro] Bm D Em F#m

            Bm
Kurajut kau terbang diatas awan
             D
Agar kau tegar dan tak terkalahkan
      Em
Jadilah jagoan seperti yang ku inginkan
           F#5              Bm      F/A
Agar dapat ku banggakan
            Bm
Namun sikapmu kini telah berubah
           D
Membuatku resah dan serba salah
        Em
Kau berdiam diri membuat nadiku berhenti
           F#m             Bm
Katakanlah hai kekasih

[Chorus]
                      G                           D
Coba kau pikirkan, coba kau renungkan
                      Bm                            A
Apa yang kau inginkan telah aku lakukan
                      G                           D
Coba kau pikirkan, coba kau renungkan
                         Bm                               A
Tanya bintang-bintang hanya kau yang ku sayang
                 G                             A
Coba kau katakan apa yang kau inginkan
                       F#m                          Bm
Apa yang kau butuhkan telah aku berikan
                 G                             A
Coba kau katakan apa yang kau inginkan

[Interlude] D A Bm F#m
                G D Em A

[Chorus]
                      G                           D
Coba kau pikirkan, coba kau renungkan
                      Bm                            A
Apa yang kau inginkan telah aku lakukan
                      G                           D
Coba kau pikirkan, coba kau renungkan
                         Bm                               A
Tanya bintang-bintang hanya kau yang ku sayang
                 G                             A
Coba kau katakan apa yang kau inginkan
                       F#m                          Bm
Apa yang kau butuhkan telah aku berikan
                 G                             A
Coba kau katakan apa yang kau inginkan

                      G                           D
Coba kau pikirkan, coba kau renungkan
                      Bm                            A
Apa yang kau inginkan telah aku lakukan
                      G                           D
Coba kau pikirkan, coba kau renungkan
                         Bm                               A
Tanya bintang-bintang hanya kau yang ku sayang
                 G                             A
Coba kau katakan apa yang kau inginkan
                       F#m                          Bm
Apa yang kau butuhkan telah aku berikan
                 G                             A
Coba kau katakan apa yang kau inginkan

[Outro] Bm

Senin, 24 September 2012

Chord Lagu Badajidingadan [Full Tab] - Endank Soekamti

Intro
e|------------------------|
B|------------------------|
D|------------------------|
G|------5----------7------|
A|----7----7-7-7-8---5-7--|
E|--8---------------------|

Bengi golek wedokan...
e|-----------------------------------------------------------------------------------|
B|-----------------------------------------------------------------------------------|
G|--9--7--5--4-4-4-4--9--7--7--10-10-10-10--9--7--5--4-4-4-4--9-9--9-9-9-9--7--7--7--|
D|-----------------------------------------------------------------------------------|
A|--7--5--3--2-2-2-2--7--5--5--8--8--8--8---7--5--3--2-2-2-2--7-7--7-7-7-7--5--5--5--|
E|-----------------------------------------------------------------------------------|

Kodoncodokudu...
e|----------------------------------------------------------------------|
B|----------------------------------------------------------------------|
G|--12-12--12-12-12-12--10-10--10-10-10-10--9-9--9-9-9-9--7-7--7-7-7-7--|
D|----------------------------------------------------------------------|
A|--10-10--10-10-10-10--8--8---8--8--8--8---7-7--7-7-7-7--5-5--5-5-5-5--|
E|----------------------------------------------------------------------|

e|-----------------------------------------------------------|
B|-----------------------------------------------------------|
G|--12-12--12-12-12-12--10-10--10-10-10-10--9-9--9-9-9-9--7--|
D|-----------------------------------------------------------|
A|--10-10--10-10-10-10--8--8---8--8--8--8---7-7--7-7-7-7--5--|
E|-----------------------------------------------------------|

e|----------------------------------------------------------------------|
B|----------------------------------------------------------------------|
G|--12-12--12-12-12-12--10-10--10-10-10-10--9-9--9-9-9-9--7-7--7-7-7-7--|
D|----------------------------------------------------------------------|
A|--10-10--10-10-10-10--8--8---8--8--8--8---7-7--7-7-7-7--5-5--5-5-5-5--|
E|----------------------------------------------------------------------|

e|---------------------------------------------------------------------------------|
B|---------------------------------------------------------------------------------|
G|--12-12--12-12-12-12--10-10--10-10-10-10--9-9--9-9-9-9--7-7--7-7-7-7--12--9--12--|
D|---------------------------------------------------------------------------------|
A|--10-10--10-10-10-10--8--8---8--8--8--8---7-7--7-7-7-7--5-5--5-5-5-5--10--7--10--|
E|---------------------------------------------------------------------------------|

Intro
e|---------------------------------------|
B|---------------------------------------|
G|---------------------------------------|
D|---------------------------------------|
A|--3---3-5-3-5-5/7~----3---3-5-7-7b8b7--|
E|----3-------------------3--------------|

Suara piano
e|--8-7-5------------------8-7-5-----------------|
B|--------8-6-5-6-5--------------8-6-5-6-5--8----|
G|-------------------5-7----------------------7--|
D|-----------------------------------------------|
A|-----------------------------------------------|
E|-----------------------------------------------|

Waktu pianonya main
e|--3-3---3-3---3-3---3-3---3-3---3-3---3-3--------------|
B|--5-5---3-3---5-5---3-3---5-5---3-3---5-5--------------|
G|--5-5---4-4---5-5---4-4---5-5---4-4---5-5---3p2h3p2h3--|
D|-------------------------------------------------------|
A|-------------------------------------------------------|
E|-------------------------------------------------------|

tangi le...
e|---------------------------|
B|---------------------------|
G|----------------3p2h3p2h3--|
D|--5-5---5-5-5--------------|
A|--5-5---5-5-5--------------|
E|--3-3---3-3-3--------------|

Setelah yg diatas
e|-----------------------------------|
B|-----------------------------------|
G|--5-----5-3-----3-2-----2-3-----3--|
D|-----5-------3-------2-------3-----|
A|-----------------------------------|
E|-----------------------------------|

e|-----------------------------------------------------------------|
B|--8-8-8-8-12-12-8-8--6-6-6-6-12-12-6-6--5-5-5-5-12-12-5-5--3-----|
G|-----------------------------------------------------------------|
D|--------------------------------------------------------------5--|
A|-----------------------------------------------------------------|
E|--------------------------------------------------------------3--|

Intro
e|-----------------------------------------------------------------------------------|
B|------1---1-----1---1-----1---1-----1---1-----1---1-----1---1-----1---1-----1---1--|
G|----0---0-----0---0-----0---0-----0---0-----0---0-----0---0-----0---0-----0---0----|
D|------------3----------------------------------------------------------------------|
A|--3-------------------3-------------------0-------------------3--------------------|
E|--------------------------------3-------------------1-------------------3----------|


Sabtu, 22 September 2012

Chord Lagu Yang Baru - Naff

[intro] A F#m A F#m

A            F#m
Lelah hati bicara 
A              F#m
perhatikan dirimu
A               F#m
Seakan engkau sengaja 
A                F#m
memperlihatkan aku

         Bm          E
Dengan tawa kau membuat
         A                       D
Hidupku ini bagai hidup tak berarti
         Bm             E
Dengan tawa kau lukis lukaku

[chorus]
        A                      D
Tak peduli semua hati kau datangi
        Bm                       E
Tak peduli semua nyawa kau singgahi
        C#m                F#
Biar semua terlihat di mataku
    Bm          E
Kau paksa ku dapatkan yang baru

[int] A F#m A F#m

A               F#m
Sulitnya aku membaca 
A              F#m
arah jalan hatimu

         Bm          E
Dengan tawa kau membuat
         A                       D
Hidupku ini bagai hidup tak berarti
         Bm             E
Dengan tawa kau lukis lukaku

[chorus]
        A                      D
Tak peduli semua hati kau datangi
        Bm                       E
Tak peduli semua nyawa kau singgahi
        C#m                F#
Biar semua terlihat di mataku
    Bm          E            A
Kau paksa ku dapatkan yang baru

F#m        E           D
Biar aku mengalah di sini
F#m           E         D   E  F#
Biar aku yang rasa sendiri ooh

[chorus:overtone]
        B                     E
Tak peduli semua hati kau datangi
        C#m                      F#
Tak peduli semua nyawa kau singgahi
       D#m                 G#
Biar semua terlihat di mataku
    C#m        F#
Kau paksa ku dapatkan yang baru

        B                     E
Tak peduli semua hati kau datangi
        C#m                      F#
Tak peduli semua nyawa kau singgahi
       D#m                 G#
Biar semua terlihat di mataku
    C#m        F#
Kau paksa ku dapatkan yang baru

[outro] B G#m B G#m B

Selasa, 18 September 2012

Chord Lagu Percayalah - Afgan


[Intro] D Bm G F#m Em F#

B                 G#m
Aku yang tak akan melepaskan
E                      Em
Kamu yang menggenggam hatiku
B                G#m
Kita takkan mungkin terpisahkan
      E                         Em                A
Biarlah terjadi, apapun yang terjadi

        D           A/C#           Bm
Hu uu.. Aku.. yang tak bisa melepaskan
G                Gm
Kamu yang miliki hatiku..
         C#m       F#              Bm
Woo oo.. Walau mungkin terlalu cepat
         C
Bagi kita berdua
      A
Untuk mengatakan

[Chorus]
D                       Bm
Selamanya kita akan bersama
      G            F#m
Melewati segalanya
         Em                               Bm
Yang dapat pisahkan kita berdua
                       G
Selamanya kita akan bersama
F#m Em            F#m
Takkan ada keraguan
G               A
Kini dan nanti
         D
Percayalah

[Intro] D Bm G

D        A/C#           Bm
Aku.. yang tak bisa melepaskan
D G                      Gm                 C#m
       Kamu yang menggenggam hatiku..
      F#              Bm
Walau mungkin terlalu cepat
         C
Bagi kita berdua
      A
Untuk mengatakan

[Chorus]
D                       Bm
Selamanya kita akan bersama
      G            F#m
Melewati segalanya
         Em                               Bm
Yang dapat pisahkan kita berdua
                       G
Selamanya kita akan bersama
F#m Em            F#m
Takkan ada keraguan
G               A
Kini dan nanti
           A#      C D
Percayalah..
           A#      C D
Percayalah..

            A#                Gm
Hanya dirimu satu-satunya
                      A
tercipta untukku

[Chorus] [Overtone]
       D#                          Cm
Ho wo.. Selamanya kita akan bersama
       G#            Gm
Takkan ada keraguan
G#              A#
Kini dan nanti
           D#      A#       C#       Cm
Percayalah..      Huwo.. ho..
       G#            Gm
Takkan ada keraguan
G#              A#
Kini dan nanti

         G#            Gm
Tak akan ada keraguan
        G#           A#
Dan kita memilih

           D#
Percayalah.. Percayalah..

[Outro] Cm G#-Gm-Fm      D#

Minggu, 16 September 2012

Chord Lagu Kupu Biru - Slank


[Intro] Cm A# G# A# (4x)

          Cm                       A#
kau bilang hitam, ku bilang putih
          Cm                 A#
kau suka merah, ku suka kuning
         Cm                 A#
naik ke atas, turun ke bawah
          Cm                      A#
belok ke kanan, belok ke kiri

        Cm                A#
aku menangis, aku tertawa
         Cm                       A#
maju ke depan, mundur ke belakang
         Cm                       A#
ku sudah lapar, aku masih kenyang
         Cm                        A#
ku rasa haus, aku tak ingin minum

       Cm        A# G#            A#              Cm A#
heiyo heiyo      walaupun kita selalu beda
G#            A#              Cm        A#
walaupun kita selalu berbeda
G#            A#              Cm        A#
walaupun kita selalu tak sama
G#          A#          
tapi kita gak boleh

          Cm                       A#
aku mulai panas, aku kedinginan
          Cm                       A#
mulai gak sabar, aku masih santai
          Cm                       A#
aku kipas-kipas, aku pake jaket
          Cm                       A#
aku sudah gerah, aku masih suci

          Cm                       A#      
aku mulai marah, aku tenang saja
            Cm                      A#
wajahku merengut, aku senyum-senyum
            Cm                        A#
darahku mendidih, darahku membeku
           Cm                       A#
aku loncat-loncat, aku diam saja

       Cm        A# G#            A#              Cm A#
heiyo heiyo      walaupun kita selalu beda
G#            A#              Cm        A#
walaupun kita selalu berbeda
G#            A#              Cm        A#
walaupun kita selalu tak sama
G#          A#              Cm
tapi kita gak boleh.. Berantem..

[Intro] Cm A# G# A# (4x)

          Cm                       A#      
aku suka langit, aku suka laut
          Cm                       A#      
aku mau terbang, aku suka nyelam
           Cm                          A#      
naik kapal terbang, naik kapal laut
           Cm                        A#      
biar cepat-cepat, biar pelan-pelan

        Cm                 A#      
aku berlari, aku jalan-jalan
          Cm                      A#      
aku buru-buru, aku lambat-lambat
          Cm                 A#      
aku naik kuda, aku naik onta
        Cm                A#      
aku duluan, aku belakangan

       Cm        A# G#            A#              Cm A#
heiyo heiyo      walaupun kita selalu beda
G#            A#              Cm        A#
walaupun kita selalu berbeda
G#            A#              Cm        A#
walaupun kita selalu tak sama
G#          A#
tapi kita gak boleh.. Berantem..

Cm        A#        G#            A#              Cm A#
heiyo heiyo      walaupun kita selalu beda
G#            A#              Cm        A#
walaupun kita selalu berbeda
G#            A#              Cm        A#
walaupun kita selalu tak sama
G#          A#               Cm
tapi kita gak boleh..
         Cm
Berantem..
         Cm
Berantem..

Cm
kupu biru, kupu biru, kupu biru, kupu biru

         Cm                        A#      
ku bilang murah, aku bilang mahal
         Cm                        A#      
ku bilang bagus, aku bilang jelek
         Cm                          A#      
ku bilang panjang, aku bilang pendek
         Cm                       A#      
ku bilang jauh, aku bilang dekat

         Cm                 A#      
ku suka ramai, ku suka sepi
         Cm                 A#      
ku suka party, ku suka nyepi
        Cm                A#      
aku berenang, aku berjemur
        Cm                 A#      
aku tenggelam, aku terbakar

       Cm        A# G#            A#              Cm A#
heiyo heiyo      walaupun kita selalu beda
G#            A#              Cm       A#
walaupun kita selalu berbeda
G#            A#              Cm        A#
walaupun kita selalu tak sama
G#          A#              
tapi kita gak boleh..

Cm        A#       G#            A#              Cm A#
heiyo heiyo walaupun kita selalu beda
G#            A#              Cm       A#
walaupun kita selalu berbeda
G#            A#              Cm        A#
walaupun kita selalu tak sama
G#          A#              Cm
tapi kita gak boleh..
         Cm
Berantem..
         Cm
Berantem..

Senin, 10 September 2012

Chord Lagu Foto Dalam Dompet (new version) - Slank

[into] C D Bm Em

C  D                Bm      Em
Uu di hati ini cuma ada dirimu
C  D                    Bm        Em
Uu di dalam mimpi pasti ada bayangmu
C  D                   Bm        Em
Uu di sini slalu masih memikirkanmu
C  D               Em  C     D
Uu di sini aku gelisah ingin tahu

[chorus]
G     Am C   Em          D
Masihkah diriku di dalam hatimu
G     Am C   D
Masihkah fotoku di dalam dompetmu

[int] C D Bm Em


G     Am C   Em          D
Masihkah potretku di tembok kamarmu
Masihkah bayangku di dalam mimpimu

C  D            Bm             Em
Uu di sana kamu nggak ada kabarnya
C  D              Bm            Em
Uu di sini hampir bosan menunggumu
C  D            Bm       Em
Uu di sana kamu kemana saja
C  D             Em
Uu di sini aku resah
C      D
Sangat ingin tahu

[chorus]
G     Am C   Em          D
Masihkah diriku di dalam hatimu
G     Am C     Em           D
Masihkah potretku di tembok kamarmu
G     Am C     Em           D
Masihkah bayangku di dalam mimpimu
G     Am C   D           C     G
Masihkah fotoku di dalam dompetmu

[solo] Em G 3x  
       Em C D

[chorus]
G     Am C   Em          D
Masihkah diriku di dalam hatimu
G     Am C     Em           D
Masihkah potretku di tembok kamarmu
G     Am C     Em           D
Masihkah bayangku di dalam mimpimu
G     Am C   D           
Masihkah fotoku di dalam dompetmu

[outro] G

Kamis, 06 September 2012

Chord Lagu Metal Vs Dugem - Project Pop

Intro : Em G D Am 4x Em

Em          G
kita anak metal
D           Am   
kita kalo joged sukanya 
Em       G
mental metal
D                          Am
tabrak sana, tabrak sini seperti 
Em     G
kuda binal
D                Am
kita bisa lincah walaupun cuma 
Em       G
pakai sendal
D            Am
abis joged pegal2

E5       G5
kita selalu optimis
F#5       F5
ayo semua ngangguk2
E5         G4
apa saja kita setuju
F#5        F5
ayo semua ngangguk2

reff 1:
E5   G5 F#5 A5
guk, ngangguk ... ngangguk  guk
E5       G5          F#5          A5
guk ngangguk2 kayak ayam lagi ngantuk, tuk
(guk ngangguk2 kayak orang lagi batuk, tuk)

Intro 2 : Em G D Am
  Em               Am
kita anak dugem, pagi atau malem
  Em                     Am
bisa tetep dugem walau badan bau asem
  Em              Am
kita anak dugem tidak macem2
  Em                    Am
tetep bisa kalem walau diajak berantem
  Em               Am
kita anak dugem, pagi atau malem
  Em               Am
bisa tetep dugem walau badan bau asem
  Em               Am
kita anak dugem tidak macem2
  Em                   Am
tetep bisa kalem lek gelud ora gelem

Em       G
kita selalu pesimis
D         Am
ayo semua geleng2
Em         G
apa saja tidak setuju
D          Am
lebih suka geleng2

reff 2:
Em     G      D      Am
leng geleng geleng geleng...
Em     G            D          
leng geleng2 kayak ayam lagi jereng
(leng geleng2 kayak orang di tempeleng)

Em          G  
bagaimana kalo diadu 
D              Am
kpala siapa yg paling batu
Em     G
anak metal gak takut, 
D          Am
anak dugem pasti takut

Em          G
sapa bilang kita takut, 
D          Am
pala kita memang paling batu
Em     G
anak metal ngangguk2, 
D          Am
anak dugem ayo geleng2

Sabtu, 01 September 2012

Chord Lagu Ku Curi Lagi Hatimu - Ada Band

[intro] Em D C 2x

    Em       D           C
gelisah merindukan pelukmu
     Em        D          C
salahku meninggalkanmu oh kasihku
Am                D
maafkan salahku dulu
 Am              D
aku sayang kepadamu

[chorus]
     G      D             Em
andaikan ku curi lagi hatimu
     C           G           D
percayalah hanya padamu cintaku 
    G   D                   Em
kamulah harta yang paling indah
     C               G            D
ku sayang dan selalu ku jaga kekasih

[int] Em D C 

    Em       D            C
selalu membayangkan wajahmu
     Em       D            C
terbawa disetiap waktu dan mimpiku
  Am              D
maafkan salahku dulu
 Am              D
aku sayang kepadamu

[chorus]
     G      D             Em
andaikan ku curi lagi hatimu
     C           G           D
percayalah hanya padamu cintaku 
    G   D                   Em
kamulah harta yang paling indah
     C               G            D
ku sayang dan selalu ku jaga kekasih

  C      D   Em 
belahlah dadaku
  C      D     Em
lihat betapa besarnya cinta ini

[solo] C

[chorus]
     G      D             Em
andaikan ku curi lagi hatimu
     C           G           D
percayalah hanya padamu cintaku 
    G   D                   Em
kamulah harta yang paling indah
     C              G            D
ku sayang dan slalu ku jaga kekasih

     G      D             Em
andaikan ku curi lagi hatimu
     C           G           D
percayalah hanya padamu cintaku 
    G   D                   Em
kamulah harta yang paling indah
     C               G            D
ku sayang dan selalu ku jaga kekasih

[outro] Em D C 2x Em